Download
Lesson Sheet
 

 

‘Tab Time 3...'

  • Now that you can play a little better and read tab notation, we are going to combine chords and melody parts together

  • The chords are written out fully in tab notation so...

    • A chord of 'C' would be written like,

      • A --3---

      • E --0---

      • C --0---

      • G --0---

    • A chord of 'F' would be written like,

      • A --3---

      • E --0---

      • C --0---

      • G --0---

 

'Steady as you Go'

A --0--0--0--0--|--0--0--0--0--|--3--3--3--3--|--2-----2------|-

E --0-----------|--1-----------|--0-----------|--0-----0------|-

C --0-----------|--0-----------|--0-----------|--2-----2------|-

G --2-----------|--2-----------|--0-----------|--1-----1------|-

 

 

A --0--0--0--0--|--0--0--0--0--|--3--3--3--3--|--0------------||

E --0-----------|--1-----------|--0-----------|--0------------||

C --0-----------|--0-----------|--0-----------|--0------------||

G --2-----------|--2-----------|--0-----------|--2------------||

 

'Ukulele Post'

A --0--0--0--0--|--0-----------|--0--0--0-----|--0-------:||

E --1-----------|--1--1--1--1--|--1-----1-----|--1-------:||

C --0-----------|--0-----------|--0-----0--0--|--0-------:||

G --2-----------|--2-----------|--2-----2-----|--2-------:||

'March by the Sea?'

A --3--3--------|--3--3--------|--3--3--------|--3----3----:||

E --0-----0-----|--0-----0-----|--0-----------|--0----0----:||

C --0--------0--|--0--------0--|--0-----------|--0----0----:||

G --0-----------|--0-----------|--0-----0--0--|--0----0----:||

'A Minor Lament'

A --0--0--0--0--|--3--3--2----|--0--0--0--0--|--3--5--0----||

E --0-----1-----|--0-----0----|--0-----1-----|--0-----0----||

C --0-----0-----|--0-----2----|--0-----0-----|--0-----0----||

G --2-----2-----|--0-----1----|--2-----2-----|--0-----2----||

 

 

 

 

 

 

 

 

 

 

 

   © J. Cockshott 2015 : Terms and Conditions