UKULELE ROCKS!   UKULELE ROCKS!   UKULELE ROCKS!

HOME LESSONS BUYERS GUIDE TUNER CHORDS CONTACT

Sound File

Download Lesson Sheet

 

 

'Sky and the Library'
                        
                                           Chord Diagram list...

C                                                F
Once there was a girl whose name was Sky
C                                                 G
She looked like a girl but she dressed like a guy
C                                                F
She lived near the water in a town of crooks
            C_____       G7___      G7   G7     C
so she went underwater, to find some books

C                                   F
Sky got to the library underwater
C                                    G
She met a man called Mr Porter
C                                F
He told her about a man called James
           C_____        G7___         G7   G7  C
Who's gonna take part in The Hun-ger Games

Solo

A -------------------|--------------|-------------------|---------------|-
E --0--0-1--3--0--|--------------|--0--0-1--3--0--|------0-------|-
C --0---------------|--2--0--0----|--0---------------|--2------2----|-
G -------------------|--------------|-------------------|--0------------|-


A -------------------|----------------|-----------------|---------------||-

E --0--0-1--3--0--|----------------|--0--0----------|---------------||-
C --0---------------|--2--0--0--2--|--0------2--2--|--2--0--0----||-
G -------------------|----------------|----------0------|--0-----0----||-

D                                          G
James told Sky about the leaking roof
D                                            A
He thought the library was water proof
D                                           G
A water dragon came and made a flood
        D____              A7____     A7     A7 D
and James said to Sky "This can't be good!?"


D                              G
James and Sky let out a yelp!
D                                       A
The frogs at the Library thought they could help
D                                                G
They all leapt together to the clouds up high
       D____       A7____           A7       A7   D
and saved the Library with James and Sky.

       D____       A7____           A7       A7   D
and saved the Library with James and Sky.

        D____       A7____           A7       A7   D
and saved the Library with James and Sky.

 

 


 

     J. Cockshott 2010 : Terms and Conditions